If you are using Internet Explorer 6, you may not have the best Bebo experience. Please consider upgrading.

Arctic Monkeys

Bcum a fan

10/29/07 | me too! | Reply

Become a Member

4 luv

  • Profile views: 3,642
  • Group created: September 2007
  • www.bebo.com/BEBO_4808102951
Post a Comment:

About Me

Me, Myself, and I
Alright people, this is a site dedicated 2 the arctic monkeys(clapping in the background)



Band Members:

Alex Turner - Guitar & Lead Vocals

Jamie Coook - Lead Guitar & Backing Vocals

Matt Helders - Drums & Backing Vocals

Nick O'Malley - Bass & Backing Vocals

Former Members:

Andy Nicholson - Bass


Established in 2002 Arctic Monkeys are a four-piece indie rock revival band from Sheffield, England. Their first two singles, "I Bet You Look Good on the Dancefloor" and "When the Sun Goes Down", both went straight to number one in the UK Singles Chart, and the band's debut album, Whatever People Say I Am, That's What I'm Not, holds the record for the largest first week sales of a debut album in UK history.

bcum a fan pleeze

close Video Blog

close Polls

close Blog

  • could u pleas rate Arctic Monkeys out of 100 then rate this site

    rate the arctic monkeys and this site out of 100

    5 Comments 300 weeks

  • bet that u look good on the dancefloor 1st floor solo 4 all u wrockin guitar players

    1ST SOLO - 16 BARS 9-24 (0.10 - 0.27)

    |-------------------------------------------------------------|
    |-------------------------------------------------------------|
    |-----------------------------------------9-9-9-9-11-11-11-11-|
    |---------------------9-9-9-9-11-11-11-11---------------------|
    |-9-9-9-9-12-12-12-12-----------------------------------------|
    |-------------------------------------------------------------|

    |--------------------------------------------------------|
    |--------------------------------------------------------|
    |-14-14-14-14-16-16-16-16-16b-16b-16b-16b-16b-16b-16b-16b|
    |--------------------------------------------------------|
    |--------------------------------------------------------|
    |--------------------------------------------------------|

    |--------------------------------------------------|
    |--------------------------------------------------|
    |-16-14----------14--16-14---------—14-16b<18>r16--| PLAY 16TH FRET AND BEND
    |-------16-14-16-----------16-14-16----------------| UP TO 18 AND RELEASE.
    |--------------------------------------------------|
    |--------------------------------------------------|


    |--------------------------------------------------------------|
    |--------------------------------------------------------------|
    |16-16-16-16-14----------14------------------------------------|
    |---------------16-14-16----16---16-16-16-16-14----------14----|
    |-----------------------------------------------16-14-16----16-|
    |--------------------------------------------------------------|

    |---------------------------------------------------------|
    |---------------------------------------------------------|
    |---------------------------------------------------------|
    |---------------------------------------------------------|
    |-14-12-14-12----------12-14-12----------12-14b151515r14\-|
    |-------------14-12-14----------14-12-14------------------|

    BEND THE 14TH FRET TO
    15 FOR THE LAST 4 NOTES.
    THEN RELEASE, AND SLIDE
    BACK DOWN THE NECK.

    1 Comment 304 weeks

close Quizzes

close Moderator

close Photos

close Video Box

help

Arctic Monkeys- Bet You Look Good On The Dancefloor Live Razzmatazz, Barcalona

close Comments

Post comment as:

Share the Luv (5 Luv left)

Attach a photo from your albums